Again by Alice In Chains
(3 versions)


From: Mike Byj (waltb@netcom.ca)

This song can be tricky. I am not sure of the chorus riff,
so I just follow some of the bass riff.

Verse Riff
1-----------------------------------
2-----------------------------------
3--------6-----------7--------------
4--5-5-5-6-6-6-6-6-6-7-5-5-5-5-5-5-5
5--5-5-5-4-6-6-6-6-6-5-5-5-5-5-5-5-5
6--3-3-3---4-4-4-4-4---3-3-3-3-3-3-3

Chorus Riff (Wrong: This is the Bassline put into guitar chords)

1-------------------------
2-------------------------
3-------------------------
4--6-6-6-6-6-7-7-7-7-7----
5--6-6-6-6-6-7-7-7-7-7----
6--4-4-4-4-4-5-5-5-5-5-7-5

Bridge:

1--------0-3-----
2----------------
3----6---------7-7
4--6-6-6-----5-7-7
5--6-4-6-----5-5-5
6--4---4-----3----

As the bridge is being played this is the solo
the (') is a bend of some sorts
1------------------------
2--11'-(11)--------------
3------------------------
4-----------10'----------
5------------------------
6------------------------


===============================================================================


From: Dan (aileen.arboleda@mci2000.com)

Corrections For Again

Here is the chorus riff:

HyE----------------------------
B------------------------------
G------6-----------------------
D---6--6--6--5-4--6-7-7--4-4-5-
A---6--4--6--5-4--6-7-7--4-4-5-
LoE-4-----4-------4-5-5--2-2-3-

Here is the Bridge Riff:

HyE-------4-7-------]
B-------------------]
G-----6---------7-7-]
D---6-6-6-----5-7-7-]
A---6-4-6-----5-5-5-]
LoE-4---4-----3-5-5-]


===============================================================================


From: BillBill5@aol.com


The above tabs helped a lot but why don't you try this:
(electric guitar)
Main Riff:
e---------------------------------------------
b------------------------------------------
g-------------------------------------------
d-------------------------------------------
a--4--4--4--4--4--4--5--5--3---3--3--3--3--3
E-2--2--2--2--2--2--3--5--1---1--1--1--1--1

Chorus:

e-------------------
b---------------------
g-------------------
d------------------
a---4--4--5--3--
E--2--2--3--1--

You can tell where this comes in

e------------------
b------------------
g------------------
d-------6-------
a--5---4-6-----
E-3------4-----


...Suzy was a
bad child
Always on the wrong
side
Ah, she was no good
She was bad, bad,
bad
with the bad cats
Always punching the
needle in her arm...
A good night,
the best in a long
time
A new friend turned
me on to an old
favorite
Nothing better than
a dealer who's high
Be high, convince
them to buy

Chorus

What's my drug of
choice?
Well, what have you
got?
I don't go broke
And I do it a lot


Seems so sick
to the hypocrite
norm
Running their
boring drills
But we are an
elite race of our
own
The stoners,
junkies,
and freaks

Are you happy? I am,
man.
Content and fully
aware
Money, status,
nothing to me
'Cause your life
is empty and bare

Chorus

You can't
understand a user's
mind
But try, with your
books and degrees
If you let yourself
go and opened your
mind
I'll bet you'd be
doing like me
And it ain't so bad

Chorus

Say, I do it a lot!
.....I do it a lot!
.....I do it a lot!
Say, I do it a lot!
...I give this
part of me
for
you...

I have never felt such
frustration
Or lack of self
control
I want you to
kill
me
And dig me
under,
I wanna live
no more
 
Unglaubliche 2874 Besucher (10246 Hits) waren auf meiner unglaublich interessanten Seite
=> Willst du auch eine kostenlose Homepage? Dann klicke hier! <=